Komentarze


strony: « 1 2
dobra dusza
dobra dusza 7 sierpnia 2015, 18:03
www.fotosik.pl/pokaz_obrazek/f624e180181b7a08.html warto sprawdzić i poznać największy sekret świata.
kubax
kubax 21 pazdziernika 2015, 18:55
przyjemnie się gra na gitarze oraz słucha się z przyjemnością :)
I'm
I'm 11 lutego 2016, 17:53
czy można zamienić chwyt f na jakiś prostszy ??? i czy zna ktoś bicie ??? :D z góry dzięki za odpowiedzi :D
Marek
Marek 13 kwietnia 2016, 21:13
Intro:
e ----------------------|---------------------|--------------- -------|-------------------|
H ----------------------|---------------------|--------------- -_3_-|-------------------|
G ----------------------|---------------------|----------2---- 242-|-------------------|
D -2|------------2-----|---------------------|-------0-0------ -----|-4p2p0-2-------|
A -0|--0h3h4------0-|-2|------------2-----|----0-------------- --|-------------------|
E ----------------------|-0|-0--3/4-------0-|-2--------------- ----|-------------------|

e ---------------------|-------------------|-----------------| ---------------------|
H ---------------------|-------------------|-----------------| ---------------------|
G ---------------------|-------------------|-4--2-----------|- ----_3_-----------|
D -2|------------2----|-------------------|-0--0--4--2----|-2- -020--0p2-----|
A -0|--0h3h4-----0-|-2|-----------2----|--------0--0----|----- ----------------|
E ---------------------|-0|-0--3/4--------|-----------------|- -------------------|
Mr.Dominik 94
Mr.Dominik 94 3 maja 2017, 16:38
BARDZO NIE FAjNE:XD



strony: « 1 2


Strona korzysta z plików cookie w celu realizacji usług zgodnie z Polityką prywatności.
Możesz określić warunki przechowywania lub dostępu do cookie w Twojej przeglądarce.

Zgłoś obraźliwą treść

Uzasadnij swoje zgłoszenie.

wpisz wiadomość


lub tradycyjnie
login lub email
hasło